Соц сети

31.01.2012

В колонках играет - YELLOWCARD - BREATHING
Настроение сейчас - устала......

сегодня ездили с подружками на телецентр...там так клево!!!тепло, все такое зеленющее 8) теплый ветерок дует 8) супер вощем! фоток кучу нафотькали...тока мне хреновато как-то стало када домой ехали...грустно, спать хотелось, устала... а так все хорошо) после гуляния села подбирать песню Wake me up when september ends (greenday)..подобрала) но запарилась табу писать( зато теперь буду перед Юшковым-старшим хвастаться что я всю песню знаю как играть >))) хыы 8) буду его учить))) ХАХАХА 8)))) смешно да? 8) хихик) Алиюха с Никиткой ездили на Человека-Паука 3, сказали, что не оч фильм...нудный какой-то) ну и ладна)
кстати воть выкладываю табу) кому надо)
Wake me up when september ends tab

Вступление
1|----------------|----------------|----------------|----------------|
2|----3-----3-----|----3-----3-----|----3-----3-----|----3-----3-----|
3|--0-----0-------|--0-----0-------|--0-----0-------|--0-----0-------|
4|5-----5---------|5-----5---------|5-----5---------|5-----5---------|
5|----------------|----------------|----------------|----------------|
6|----------------|----------------|----------------|----------------|

Summer has come and passed
The innocent can never last
1|----------------|----------------|----------------|----------------|
2|----3-----3-----|----3-----3-----|----3-----3-----|----3-----3-----|
3|--0-----0-------|--0-----0-------|--0-----0-------|--0-----0-------|
4|5-----5---------|4-----4---------|2-----2---------|0-----0---------|
5|----------------|----------------|----------------|----------------|
6|----------------|----------------|----------------|----------------|

Wake me up when september ends
1|----------------|----------------|----------------|----------------|
2|----5-----5-----|----4-----4-----|----3-----3-----|----3-----3-----|
3|--0-----0-------|--0-----0-------|--0-----0-------|--0-----0-------|
4|----------------|----------------|5-----5---------|5-----5---------|
5|3-----3---------|3-----3---------|----------------|----------------|
6|----------------|----------------|----------------|----------------|

Like my fathers come to pass
Seven years has gone so fast
1|----------------|----------------|----------------|----------------|
2|----3-----3-----|----3-----3-----|----3-----3-----|----3-----3-----|
3|--0-----0-------|--0-----0-------|--0-----0-------|--0-----0-------|
4|5-----5---------|4-----4---------|2-----2---------|0-----0---------|
5|----------------|----------------|----------------|----------------|
6|----------------|----------------|----------------|----------------|

Wake me up when september ends
1|----------------|----------------|----------------|----------------|
2|----5-----5-----|----4-----4-----|----------------|----------------|
3|----5-----5-----|----5-----5-----|----4-----4-----|----4-----4-----|
4|--5-----5-------|--5-----5-------|----5-----5-----|----5-----5-----|
5|3-----3---------|3-----3---------|--5-----5-------|--5-----5-------|
6|----------------|----------------|3-----3---------|3----3-2--------|

Here comes the rain again
Falling from the stars
1|----------------|----------------|-----0-----0----|----------------|
2|----3-----3-----|----3-----3-----|----------------|----3------3----|
3|--0-----0-------|--0-----0-------|--0-----0-------|--0------0--0---|
4|2-----2---------|----------------|----------------|5-----5-4-------|
5|----------------|2-----2---------|3-----3---------|----------------|
6|----------------|----------------|----------------|----------------|

Drenched in my pain again
Becoming who we are
1|----------------|----------------|-----0-----0----|----2-----2-----|
2|----3-----3-----|----3-----3-----|----------------|--3-----3-------|
3|--0-----0-------|--0-----0-------|--0-----0-------|2-----2---------|
4|2-----2---------|----------------|----------------|----------------|
5|----------------|2-----2---------|3-----3---------|----------------|
6|----------------|----------------|----------------|----------------|

As my memory rests
But never forgets what I lost
1|----------------|----------------|----------------|----------------|
2|----3-----3-----|----3-----3-----|----3-----3-----|----3-----3-----|
3|--0-----0-------|--0-----0-------|--0-----0-------|--0-----0-------|
4|5-----5---------|4-----4---------|2-----2---------|0-----0---------|
5|----------------|----------------|----------------|----------------|
6|----------------|----------------|----------------|----------------|

Wake me up when september ends
1|----------------|----------------|----------------|----------------|
2|----5-----5-----|----4-----4-----|----3-----3-----|----3-----3-----|
3|----5-----5-----|----5-----5-----|--0-----0-------|--0-----0-------|
4|--5-----5-------|--5-----5-------|5-----5---------|5-----5---------|
5|3-----3---------|3-----3---------|----------------|----------------|
6|----------------|----------------|----------------|----------------|

1|----------------|
2|----3-----3-----|
3|--0-----0-------| (6x)
4|5-----5---------|
5|----------------|
6|----------------|

Summer has come and passed
The innocent can never last
1|----------------|----------------|----------------|----------------|
2|----3-----3-----|----3-----3-----|----3-----3-----|----3-----3-----|
3|--0-----0-------|--0-----0-------|--0-----0-------|--0-----0-------|
4|5-----5---------|4-----4---------|2-----2---------|0-----0---------|
5|----------------|----------------|----------------|----------------|
6|----------------|----------------|----------------|----------------|

Wake me up when september ends
1|----------------|----------------|----------------|----------------|
2|5555555---------|4444444---------|----------------|----------------|
3|5555555---------|5555555---------|4444444---------|4444444---------|
4|5555555---------|5555555---------|5555555---------|5555555---------|
5|3333333---------|3333333---------|5555555---------|5555555---------|
6|----------------|----------------|3333333---------|3333333---------|

Ring out the bells again
Like we did when spring began
1|----------------|----------------|----------------|----------------|
2|----3-----3-----|----3-----3-----|----3-----3-----|----3-----3-----|
3|--0-----0-------|--0-----0-------|--0-----0-------|--0-----0-------|
4|5-----5---------|4-----4---------|2-----2---------|0-----0---------|
5|----------------|----------------|----------------|----------------|
6|----------------|----------------|----------------|----------------|

Wake me up when september ends
1|----------------|----------------|----------------|----------------|
2|5555555---------|4444444---------|----------------|----------------|
3|5555555---------|5555555---------|4444444---------|4444444---------|
4|5555555---------|5555555---------|5555555---------|5555555---------|
5|3333333---------|3333333---------|5555555---------|5555555---------|
6|----------------|----------------|3333333---------|3333322---------|

Here comes the rain again
Falling from the stars
1|----------------|----------------|----------------|----------------|
2|----------------|----------------|----------------|----------------|
3|0000000---------|4444444---------|5555555---------|----------------|
4|2222222---------|4444444---------|5555555---------|5555444---------|
5|2222222---------|2222222---------|3333333---------|5555444---------|
6|0000000---------|----------------|----------------|3333222---------|

Drenched in my pain again
Becoming who we are
1|----------------|----------------|----------------|----------------|
2|----------------|----------------|----------------|----------------|
3|0000000---------|4444444---------|5555555---------|----------------|
4|2222222---------|4444444---------|5555555---------|7777777---------|
5|2222222---------|2222222---------|3333333---------|7777777---------|
6|0000000---------|----------------|----------------|5555555---------|

As my memory rests
But never forgets what I lost
1|----------------|----------------|----------------|----------------|
2|----3-----3-----|----3-----3-----|----3-----3-----|----3-----3-----|
3|--0-----0-------|--0-----0-------|--0-----0-------|--0-----0-------|
4|5-----5---------|4-----4---------|2-----2---------|0-----0---------|
5|----------------|----------------|----------------|----------------|
6|----------------|----------------|----------------|----------------|

Wake me up when september ends
1|----------------|----------------|----------------|----------------|
2|5555555---------|4444444---------|----------------|----------------|
3|5555555---------|5555555---------|4444444---------|4444444---------|
4|5555555---------|5555555---------|5555555---------|5555555---------|
5|3333333---------|3333333---------|5555555---------|5555555---------|
6|----------------|----------------|3333333---------|3333322---------|

1|-------------------------------------------------------------------|
2|-------------------------------------------------------------------|
3|------------------4-4-4-4-4-4-4-4-5-5-5-5-5-5-5-5------------------|
4|--2-2-2-2-2-2-2-2-4-4-4-4-4-4-4-4-5-5-5-5-5-5-5-5-5-5-5-5-4-4-4-4--|
5|--2-2-2-2-2-2-2-2-2-2-2-2-2-2-2-2-3-3-3-3-3-3-3-3-5-5-5-5-5-5-5-5--|
6|--0-0-0-0-0-0-0-0---------------------------------3-3-3-3-2-2-2-2--|

в это время играется =>
1|------7-----7---7-----7-----7---7-----8-----8---8------------------|
2|--8-8---8-8---8---7-7---7-7---7---8-8---8-8---8---8-8-8-8-7-7-7-7--|
3|-------------------------------------------------------------------|
4|-------------------------------------------------------------------|
5|-------------------------------------------------------------------|
6|-------------------------------------------------------------------|
все это 2 раза)

1|----------------|----------------|----------------|----------------|
2|----3-----3-----|----3-----3-----|----3-----3-----|----3-----3-----|
3|--0-----0-------|--0-----0-------|--0-----0-------|--0-----0-------|
4|5-----5---------|5-----5---------|5-----5---------|5-----5---------|
5|----------------|----------------|----------------|----------------|
6|----------------|----------------|----------------|----------------|

Summer has come and passed
The innocent can never last
1|----------------|----------------|----------------|----------------|
2|----3-----3-----|----3-----3-----|----3-----3-----|----3-----3-----|
3|--0-----0-------|--0-----0-------|--0-----0-------|--0-----0-------|
4|5-----5---------|4-----4---------|2-----2---------|0-----0---------|
5|----------------|----------------|----------------|----------------|
6|----------------|----------------|----------------|----------------|

Wake me up when september ends
1|----------------|----------------|----------------|----------------|
2|5555555---------|4444444---------|----------------|----------------|
3|5555555---------|5555555---------|4444444---------|4444444---------|
4|5555555---------|5555555---------|5555555---------|5555555---------|
5|3333333---------|3333333---------|5555555---------|5555555---------|
6|----------------|----------------|3333333---------|3333333---------|

Like my father's come to pass
Twenty years has gone so fast
1|----------------|----------------|----------------|----------------|
2|----3-----3-----|----3-----3-----|----3-----3-----|----3-----3-----|
3|--0-----0-------|--0-----0-------|--0-----0-------|--0-----0-------|
4|5-----5---------|4-----4---------|2-----2---------|0-----0---------|
5|----------------|----------------|----------------|----------------|
6|----------------|----------------|----------------|----------------|

Wake me up when september ends
Wake me up when september ends
Wake me up when september ends
1|----------------|----------------|----------------|----------------|
2|5555555---------|4444444---------|----------------|----------------|
3|5555555---------|5555555---------|4444444---------|4444444---------| (3х)
4|5555555---------|5555555---------|5555555---------|5555555---------|
5|3333333---------|3333333---------|5555555---------|5555555---------|
6|----------------|----------------|3333333---------|3333333---------|
Кстааати....меня одна девчонка из аси позвала в ее группу играть на барабанах!!! О__о нифигасе да?? ну я ей сказала что не умею) она сказала ну воть научишься! 8) они все в сипайлово живут, и репы тоже там у них проходят) и инструменты даж есь! 8) ну я согласилась конешно 8) грех отказаться от такого 8) правда, это наверно тока после окончания экзаменов будет, ну посмотрим кароч)) пока что мне нужно готовиться к экзаменам, к зачету по информатике! и еще Юшков будет по средам ко мне приходить на гитаре учить 8)) Када я Тёме рассказала про барабаны, он мне сказал учись! играть на барабанах не так просто как ты думаешь! 8))) наставил меня на верный путь!! 8))) умник) и вообще, с каких пор он призывает к прилежной учебе?! 8))) ну да ладно) а я одын раз играла на барабанах в школе) это было в конце 2й четверти) Юрка-охранник нас пропустил к себе в каморку) там были большущие барабаны! 8) так угарно на них играть было) а еще там были микрофоны со стойками, клавиши, бас-гитара раздолбаная! 8))
ну нам тока разрешили на барабанах поиграть) мне понравилось 8)
Воть! 8) ух много я накалякала) глазки устали...(
прикреплю фотьку сегодняшнюю с телецентра) прикольная фотька дя? 8)
всем поки! 8)

 (500x375, 80Kb)